10 000 reasons guitar background

(/) Slide Up  (\) Slide Down  (h) Hammer On  (p) Pull Off  (b) Bend (r) Release (v) Vibrato


E|----------12--12------------------------------
B|--12--15----------15--12------12--------------
G|--------------------------14------14----------
D|--------------------------------------12--14--
A|----------------------------------------------
E|----------------------------------------------



E|----------12--12----------12--14------------------------------
B|--12--15----------15--12----------12----------12--------------
G|--------------------------------------14--14------14--12--12--
D|--------------------------------------------------------------
A|--------------------------------------------------------------
E|--------------------------------------------------------------
http://www.guitartabcreator.com
Guitar Tab Creator is intended to store guitar tab created through the tool. It currently does not support in-line text editing. Any text you place in here will be lost. If you need to comment on your tab, please use the "Tab Notes" section located below.