Perfect Nature Intro

(/) Slide Up  (\) Slide Down  (h) Hammer On  (p) Pull Off  (b) Bend (r) Release (v) Vibrato

E|----------------------5----------
B|------15------13---------13------
G|--10------10------10---------12--
D|---------------------------------
A|---------------------------------
E|---------------------------------



E|--------------------------------------------------5----------------------------------
B|------11------15------11----------16------15---------15------11------13------11------
G|--12------12------12------12--12------12------12---------12------12------12------12--
D|-------------------------------------------------------------------------------------
A|-------------------------------------------------------------------------------------
E|-------------------------------------------------------------------------------------



E|----------------------5----------
B|------15------13---------13------
G|--10------10------10---------12--
D|---------------------------------
A|---------------------------------
E|---------------------------------



E|-----------------------------------------------------
B|-----------------------------------------------------
G|--------------------------------5-----------5--------
D|-----5--6--5-----5--6--5-----7-----5-----7-----7-----
A|--5-----------5--------------------------------------
E|--------------------------5-----------5-----------6--
http://www.guitartabcreator.com
Guitar Tab Creator is intended to store guitar tab created through the tool. It currently does not support in-line text editing. Any text you place in here will be lost. If you need to comment on your tab, please use the "Tab Notes" section located below.