D Major Scale

(/) Slide Up  (\) Slide Down  (h) Hammer On  (p) Pull Off  (b) Bend (r) Release (v) Vibrato

E|--------------------------------------------------------------------0--2--3--
B|--------------0--0--2--2--3--2--0--------------------------0--2--3-----------
G|--------0--2-----------------------2--0--0-----------0--2--------------------
D|--0--2--------------------------------------2--0--2--------------------------
A|-----------------------------------------------------------------------------
E|-----------------------------------------------------------------------------



E|--2--0-----------------------------------------------------
B|--------3--2--0--------------------------------------------
G|-----------------2--0--------------------------------------
D|-----------------------2--0-----------------------------0--
A|-----------------------------2--0-----------------0--2-----
E|-----------------------------------3--2--0--2--3-----------
http://www.guitartabcreator.com
Guitar Tab Creator is intended to store guitar tab created through the tool. It currently does not support in-line text editing. Any text you place in here will be lost. If you need to comment on your tab, please use the "Tab Notes" section located below.