Solo 1

(/) Slide Up  (\) Slide Down  (h) Hammer On  (p) Pull Off  (b) Bend (r) Release (v) Vibrato

E|-12----15p12----15p12----15p12----12----------------------------------------------
B|-15b16-------14-------14-------14-14b15-14p12----12-------------------------------
G|----------------------------------------------14----14p12----12-------------------
D|----------------------------------------------------------14----14p12----12-------
A|----------------------------------------------------------------------14----12/14-
E|----------------------------------------------------------------------------------



E|-----------------------------------------------------------------------
B|--------------------------------------------------15--15---------15\0--
G|----------------------------------12--12--14--14------14b15--14--------
D|------------------12--12--14--14---------------------------------------
A|--12--12--14--14-------------------------------------------------------
E|-----------------------------------------------------------------------



E|-0/12-15p12----15p12----15p12----16p13----17p14----18p15----19p16-------16-19\0---
B|------------14-------14-------14-------15-------16-------17-------18b20----18-----
G|----------------------------------------------------------------------------------
D|----------------------------------------------------------------------------------
A|----------------------------------------------------------------------------------
E|----------------------------------------------------------------------------------
http://www.guitartabcreator.com
Guitar Tab Creator is intended to store guitar tab created through the tool. It currently does not support in-line text editing. Any text you place in here will be lost. If you need to comment on your tab, please use the "Tab Notes" section located below.