Too Close- Alex Clare

(/) Slide Up  (\) Slide Down  (h) Hammer On  (p) Pull Off  (b) Bend (r) Release (v) Vibrato


E|-------------------------3r2--------------------------------------------
B|-----3----------------3-------3-----------------------------------------
G|--------4----------2-------------2-----0--0-----0-----------0--------3--
D|-----------2h4--0----------------------2--2-----2--------0-----------4--
A|--2------------------------------------------2--------2-----------4-----
E|------------------------------------0--------------3-----------2--------



E|--2--2--0--3--2--
B|--3--3--0--0--2--
G|--4--2--0--0--3--
D|--4--0--2--0--4--
A|--2-----2--2--4--
E|--2-----0--3--2--
http://www.guitartabcreator.com
Guitar Tab Creator is intended to store guitar tab created through the tool. It currently does not support in-line text editing. Any text you place in here will be lost. If you need to comment on your tab, please use the "Tab Notes" section located below.