Slowdncing in a burning room

(/) Slide Up  (\) Slide Down  (h) Hammer On  (p) Pull Off  (b) Bend (r) Release (v) Vibrato


E|----------------------------------------------------------------------------------------------
B|--------------------------------5----5--------------------------------------------------------
G|--------9---------9---8---------4h6--4-------------------9--------9---8-----------------------
D|------------------11--9--11--9--4----4--6-------------------------11--9--11--9--6----------6--
A|--9/11-------------------11--9----------7----------9/11------------------11--9--7--9r7--9--7--
E|-----------9----------------------------------------------------------------------------------



E|----------12------12--11----------------------------------------16------16--14--12--11-----
B|--14--16----------12------14--12--12h14--12-------------17--19----------17------14---------
G|---------------------------------------------13v-------------------------------------------
D|-------------------------------------------------------------------------------------------
A|-------------------------------------------------------------------------------------------
E|-------------------------------------------------------------------------------------------



E|------14/16--12v----------
B|--14----------------------
G|--------------------------
D|--------------------------
A|--------------------------
E|--------------------------
http://www.guitartabcreator.com
Guitar Tab Creator is intended to store guitar tab created through the tool. It currently does not support in-line text editing. Any text you place in here will be lost. If you need to comment on your tab, please use the "Tab Notes" section located below.