Rodeo Clowns- Jack Johnson

(/) Slide Up  (\) Slide Down  (h) Hammer On  (p) Pull Off  (b) Bend (r) Release (v) Vibrato


E|------------------------------------------------------------------------------------
B|--9--10--12--10--9h10r9--9-------10--9--------9------9--7----------9--7--5--4h5--5--
G|--9----------------------9-------9------9-----9------9-----6-------5-------------4--
D|--9----------------------10------9---------9--8------7--------7----6-------------6--
A|---------------------------------------------------------------------------------4--
E|------------------------------------------------------------------------------------



E|--4--2--5--4--------4--4--5--2--
B|--5--2--5--4--------5--4--5--2--
G|--6--3--6--5--------6--5--6--3--
D|--6--4--7--6--------6--6--7--4--
A|--4--4--7--6--------4--6--7--4--
E|--4--2--5--4--------4--4--5--2--



http://www.guitartabcreator.com
Guitar Tab Creator is intended to store guitar tab created through the tool. It currently does not support in-line text editing. Any text you place in here will be lost. If you need to comment on your tab, please use the "Tab Notes" section located below.