The Chain by Fleetwood Mac

(/) Slide Up  (\) Slide Down  (h) Hammer On  (p) Pull Off  (b) Bend (r) Release (v) Vibrato


E|--------------2---------------------------------------2--------------------------------
B|--------1------------------1-----1h3------------1------------------1-----1-----1h3-----
G|-----------2------------2-----2--------------------2------------------2-----2----------
D|-----0---------------------------------------0------------------0----------------------
A|---------------------------------------------------------------------------------------
E|--0------------------0--------------------0------------------0-------------------------



E|-----------------------------------------0----------------------------------
B|--------1-----1-----1h3------------1--------1h3------------1-----1-----1h3--
G|-----------2-----2--------------------2-----------------------2-----2-------
D|-----0--------------------------0-----------------------0-------------------
A|----------------------------------------------------------------------------
E|--0--------------------------0-----------------------0----------------------



E|-------------------0--|--
B|--------3-------3--3--|--
G|-------------------2--|--
D|-----0----------0--0--|--
A|-----------3r0-----0--|--
E|--0----------------0--|--



E|-------------------------------5-----3----------------------------------
B|--------3-------3---------------------------------3-------------3-------
G|----------------------------0-----0------------0-----0-------0----------
D|-----0----------0-------------------------------------------------------
A|-----------3r0------------------------------3-------------1-------------
E|--0--------------------3/5-----------------------------------------3----



E|----------------------------------------
B|--------3-------3------------3-------3--
G|----------------------------------------
D|-----0----------0---------0----------0--
A|-----------3r0------------------3r0-----
E|--0--------------------0----------------
http://www.guitartabcreator.com
Guitar Tab Creator is intended to store guitar tab created through the tool. It currently does not support in-line text editing. Any text you place in here will be lost. If you need to comment on your tab, please use the "Tab Notes" section located below.