Hallelujah

(/) Slide Up  (\) Slide Down  (h) Hammer On  (p) Pull Off  (b) Bend (r) Release (v) Vibrato


E|-----------0-----------------0-----------------0-----------------0--------
B|-----------1-----------------1-----------------1-----------------1--------
G|--------0-----0-----------2-----2-----------0-----0-----------2-----2-----
D|-----2-----------------2-----------------2-----------------2--------------
A|--3--------------2--0--------------2--3--------------2--0--------------2--
E|--------------------------------------------------------------------------



E|-----------1--------------1--------3-----------0-----------------
B|--------1-----1-----------1--------3-----------1--------------3--
G|-----2-----------2-----2--------4-----------0-----0-----------0--
D|--3-----------------3--------5-----------2-----------------0-----
A|--------------------------------------3-----------------2--------
E|-----------------------------------------------------3-----------



E|-----------0--------------1--------3-----------5-----------------1-----------
B|-----------1--------------1--------3--------5-----5-----------1-----1--------
G|--------0-----0--------2--------4--------5-----------5-----2-----------2-----
D|-----2-----------2--3--------5--------7-----------------3--------------------
A|--3--------------------------------------------------------------------------
E|-----------------------------------------------------------------------------



E|-----------3-----------------7-----------------5-----------
B|--------3-----3-----------5-----5-----------5-----5--------
G|-----4-----------4-----7-----------7-----5-----------5-----
D|--5-----------------6-----------------7-----------------7--
A|-----------------------------------------------------------
E|-----------------------------------------------------------



E|-----------1-----------------1-----------------0-----------------0-----------
B|--------1-----1-----------1-----1--------------1-----------------1-----------
G|-----2-----------2-----2-----------2--------2-----2-----------2-----2--------
D|--3-----------------3--------------------2-----------2-----2-----------2-----
A|--------------------------------------0-----------------0--------------------
E|-----------------------------------------------------------------------------



E|-----------1-----------------1-----------------0--------------------
B|--------1-----1-----------1-----1--------------1-----------------3--
G|-----2-----------2-----2-----------2--------0-----0--------------0--
D|--3-----------------3--------------------2-----------2--------0-----
A|--------------------------------------3--------------------2--------
E|--------------------------------------------------------3-----------
http://www.guitartabcreator.com
Guitar Tab Creator is intended to store guitar tab created through the tool. It currently does not support in-line text editing. Any text you place in here will be lost. If you need to comment on your tab, please use the "Tab Notes" section located below.