Life Is One Beauty Contest After Another

(/) Slide Up  (\) Slide Down  (h) Hammer On  (p) Pull Off  (b) Bend (r) Release (v) Vibrato
E|--------------|-------------------------|--------------------------------------------------
B|--------------|-------------------------|--------------------------------------------------
G|--6--9--------|-----2--6--4-------------|--9--6--4--9--6--4--2--4--9--6--2--4--9--6--------
D|--6--9--9--7--|--2--2--6--4--------4p2--|--9--6--4--9--6--4--2--4--9--6--2--4--9--6--7--9--
A|--4--7--9--7--|--2--0--4--2--2--2-------|--7--4--2--7--4--2--0--2--7--4--0--2--7--4--7--9--
E|--------9--7--|--2----------------------|--------------------------------------------7--9--



E|-----------------|--------------------------------------
B|-----------------|--------------------------------------
G|-----------------|--------------------------------------
D|--2--2--2--5--2--|--7--7--7--9--7--5--5--5--7--7--7--7--
A|--2--2--2--5--2--|--7--7--7--9--7--5--5--5--7--7--7--7--
E|--2--2--2--5--2--|--7--7--7--9--7--5--5--5--7--7--7--7--
http://www.guitartabcreator.com
Guitar Tab Creator is intended to store guitar tab created through the tool. It currently does not support in-line text editing. Any text you place in here will be lost. If you need to comment on your tab, please use the "Tab Notes" section located below.