Nice fingerpicking 1

(/) Slide Up  (\) Slide Down  (h) Hammer On  (p) Pull Off  (b) Bend (r) Release (v) Vibrato
E|----------14----------------14---------------12---------------12-------
B|-------12----12----------12----12---------10----10---------10----10----
G|----13----------13----13----------13---11----------11---11----------11-
D|-11----------------11----------------9----------------9----------------
A|-----------------------------------------------------------------------
E|-----------------------------------------------------------------------



E|---------9---------------9---------------12-------9-------12-----------
B|------10---10---------10---10---------10----10------10-------10--------
G|---11---------11---11---------11---11----------11------11-------11-----
D|-0---------------0-----------------------------------------------------
A|---------------------------------0-------------------------------------
E|-----------------------------------------------------------------------



E|-
B|-
G|-
D|-
A|-
E|-
http://www.guitartabcreator.com
Guitar Tab Creator is intended to store guitar tab created through the tool. It currently does not support in-line text editing. Any text you place in here will be lost. If you need to comment on your tab, please use the "Tab Notes" section located below.