Lexi Walker Second Verse

(/) Slide Up  (\) Slide Down  (h) Hammer On  (p) Pull Off  (b) Bend (r) Release (v) Vibrato


E|--------------------------------
B|--------------------------------
G|--------------------------------
D|-----------9--8--6-----6--------
A|-----6--9-----------9-----9--7--
E|--7-----------------------------



E|--------------------------------
B|--------------------------------
G|--------------------------------
D|--------------------------------
A|-----------6--7--6--4--6--4-----
E|--4--6--7--------------------7--



E|--------------------------------
B|--------------------------------
G|--------------------------------
D|--------6--9--8--6-----6--------
A|--7--9--------------9-----9--7--
E|--------------------------------



E|--------------------------
B|--------------------------
G|--------------------------
D|--------------------------
A|-----4-----4--6--4--2--1--
E|--2-----2-----------------
http://www.guitartabcreator.com
Guitar Tab Creator is intended to store guitar tab created through the tool. It currently does not support in-line text editing. Any text you place in here will be lost. If you need to comment on your tab, please use the "Tab Notes" section located below.