Cold Side Break

(/) Slide Up  (\) Slide Down  (h) Hammer On  (p) Pull Off  (b) Bend (r) Release (v) Vibrato


E|---------------------------------------------------------
B|---------------------------------------------------------
G|---------------------------------------------------------
D|-----4-----4h5h4-----------------------------------------
A|--5-----5---------5-----4--5--7/10--9--7--5-----7--5--4--
E|---------------------5-----------------------5-----------



E|-------------------------------------------------------------------
B|-------------------------------------------------------------------
G|-------------------------------------------------------------------
D|-----4-----4h5h4---------------------------------------------------
A|--5-----5---------5-----4--5--7/10--9--7--5--12----12--12------12--
E|---------------------5---------------------------------------------



E|---------------------------------------------------------------
B|---------------------------------------------------------------
G|---------------------------------------------------------------
D|-----4-----4h5h4-----------------------------------------------
A|--5-----5---------5-----4--5--7--------------------------------
E|---------------------5-----------3--3--3--3--3--5--5--5--5--5--
http://www.guitartabcreator.com
Guitar Tab Creator is intended to store guitar tab created through the tool. It currently does not support in-line text editing. Any text you place in here will be lost. If you need to comment on your tab, please use the "Tab Notes" section located below.