Tab 6

(/) Slide Up  (\) Slide Down  (h) Hammer On  (p) Pull Off  (b) Bend (r) Release (v) Vibrato


E|--8--8--8--------7--------7--------------8--8--8--------7--------7----------------------
B|--9--9-----9--------9--------7-----7--9--9--9-----9--------9--------7-----7--9----------
G|--8--8--------8--------8--------8--------8--8--------8--------8--------8----------------
D|----------------------------------------------------------------------------------------
A|----------------------------------------------------------------------------------------
E|----------------------------------------------------------------------------------------



E|--8----9----------------------
B|--9----9----9----8----9----8--
G|--8----8----8----8----8----8--
D|------------8----8----8----8--
A|------------------------------
E|------------------------------
http://www.guitartabcreator.com
Guitar Tab Creator is intended to store guitar tab created through the tool. It currently does not support in-line text editing. Any text you place in here will be lost. If you need to comment on your tab, please use the "Tab Notes" section located below.