Tab 5

(/) Slide Up  (\) Slide Down  (h) Hammer On  (p) Pull Off  (b) Bend (r) Release (v) Vibrato

E|----------------------------------------------------------------------------------------------------
B|---------10-------------------10-------------------10-------------------10-------------------12-----
G|-------------9--------------------9--------------------9--------------------9-----------------------
D|-----11---------11--------11---------11--------11---------11--------11---------11--------11---------
A|--9-----------------9--9-----------------9--9-----------------9--9-----------------9--9-------------
E|----------------------------------------------------------------------------------------------------



E|---------------------------------------------------------------------------
B|-------------------12-------------------12-------------------12------------
G|--9--------------------9--------------------9--------------------9---------
D|-----11--------11---------11--------11---------11--------11---------11-----
A|---------9--9-----------------9--9-----------------9--9-----------------9--
E|---------------------------------------------------------------------------
http://www.guitartabcreator.com
Guitar Tab Creator is intended to store guitar tab created through the tool. It currently does not support in-line text editing. Any text you place in here will be lost. If you need to comment on your tab, please use the "Tab Notes" section located below.