Walk, Don't Run

(/) Slide Up  (\) Slide Down  (h) Hammer On  (p) Pull Off  (b) Bend (r) Release (v) Vibrato
E|-------------------------------------------------------------------------------------------------
B|--1----------------------------1--4--3----1----------------------------1-------------------------
G|-----------------0--1----1--3----------------------------0--1----1--3-----3--1----0-----0--0-----
D|--------0--1--3---------------------------------0--1--3------------------------------3-----------
A|-----3---------------------------------------3---------------------------------------------------
E|-------------------------------------------------------------------------------------------------



E|----------------------------------
B|----------------------------------
G|-----0--1--0----------0-----0-----
D|--3-----------3----1-----1-----1--
A|----------------------------------
E|----------------------------------



E|--------------------------------------------------------------------------------------
B|-------------------------1----------------------------1--4--3----1--------------------
G|--0--0----------------------------------0--1----1--3----------------------------0--1--
D|--------3--3--1--1--0----------0--1--3---------------------------------0--1--3--------
A|----------------------------3---------------------------------------3-----------------
E|--------------------------------------------------------------------------------------



E|--------------------------------------------------------------------
B|-----------1--------------------------------------------------------
G|--1--1--3-----3--1----0-----0--0-------0--1--0----------0-----0-----
D|-------------------------3----------3-----------3----1-----1-----1--
A|--------------------------------------------------------------------
E|--------------------------------------------------------------------



E|-----------------------------------------------------------------------------------------
B|-------------------------1----------------------------1--4--3----1-----------------------
G|--0--0----------------------------------0--1----1--3----------------------------0--1-----
D|--------3--3--1--1--0----------0--1--3---------------------------------0--1--3-----------
A|----------------------------3---------------------------------------3--------------------
E|-----------------------------------------------------------------------------------------



E|-----------------------------------------------------------------------------------------
B|-----------1-----------------------------------------------1----------1--3--4--3--1------
G|--1--1--3-----3--1----0-----0--0-------0--1--0-------1--3-----3--1-----------------------
D|-------------------------3----------3-----------3----------------------------------------
A|-----------------------------------------------------------------------------------------
E|-----------------------------------------------------------------------------------------



E|-------------------------------------
B|-------------------------------1--4--
G|-----------------0--1----1--3--------
D|--1--------1--3----------------------
A|-----1--3----------------------------
E|-------------------------------------
http://www.guitartabcreator.com
Guitar Tab Creator is intended to store guitar tab created through the tool. It currently does not support in-line text editing. Any text you place in here will be lost. If you need to comment on your tab, please use the "Tab Notes" section located below.