Eternal Father

(/) Slide Up  (\) Slide Down  (h) Hammer On  (p) Pull Off  (b) Bend (r) Release (v) Vibrato


E|---------------------------------------------------------------------------------------
B|---------------------------------------------------------------------------------------
G|----------------------4-------------4--6--4-----------4--------------------------------
D|--7--7--6--4--2----7-----7--6--7-------------7--6--7-----7--6--4--2----2--4--2--4/6/7--
A|---------------------------------------------------------------------------------------
E|---------------------------------------------------------------------------------------



E|-------------------------------------------------
B|-------------------------------------------------
G|--------4--6----4--7--6--4-----------4-----------
D|--6--7----------------------7--6--7-----7--6--7--
A|-------------------------------------------------
E|-------------------------------------------------
http://www.guitartabcreator.com
Guitar Tab Creator is intended to store guitar tab created through the tool. It currently does not support in-line text editing. Any text you place in here will be lost. If you need to comment on your tab, please use the "Tab Notes" section located below.