Each Day I'll Do

(/) Slide Up  (\) Slide Down  (h) Hammer On  (p) Pull Off  (b) Bend (r) Release (v) Vibrato


E|---------------------------------------------------------------------------------------
B|---------------------------------------------------------------------------------------
G|-----4--6--4-------4----------------------4----4--2--4--6-------6--4--2----4--2--------
D|--7-----------7-------7--4--2----7--6--7---------------------7-------------------4--2--
A|---------------------------------------------------------------------------------------
E|---------------------------------------------------------------------------------------



E|------------------------------------------------------------------------------------------
B|------------------------------------------------------------------------------------------
G|--------2--6----7--6--4----6--4--2----------------------------0----------0--2-------------
D|--2--4------------------------------0--2--4--2--0----0--2--4-------2--4----------2--------
A|------------------------------------------------------------------------------------------
E|------------------------------------------------------------------------------------0-----



E|------------------------------------------------------------------------------------
B|------------------------------------------------------------------------------------
G|----------------------4--6--4-------4--2----------------2--6----7--6--4----6--4-----
D|-------------------7-----------7----------4--2----2--4---------------------------7--
A|--------------0---------------------------------------------------------------------
E|--0--0--2--4------------------------------------------------------------------------
http://www.guitartabcreator.com
Guitar Tab Creator is intended to store guitar tab created through the tool. It currently does not support in-line text editing. Any text you place in here will be lost. If you need to comment on your tab, please use the "Tab Notes" section located below.