Down

(/) Slide Up  (\) Slide Down  (h) Hammer On  (p) Pull Off  (b) Bend (r) Release (v) Vibrato
E|--------------------|-----|--
B|--------------------|-----|--
G|--------------------|--2--|--
D|--5--x--5--x--x--3--|--2--|--
A|--5--x--5--x--x--3--|--0--|--
E|--3--x--3--x--x--1--|-----|--



E|-----------------------------|-----|--
B|-----------------------------|-----|--
G|--------------------5--5-----|--2--|--
D|--7--7--2--5--5--2--5--5--2--|--2--|--
A|--7--7--2--5--5--2--3--3--2--|--0--|--
E|--5--5--0--3--3--0--------0--|-----|--



E|-------------------------------------------------------------------------------------------------
B|-------------------------------------------------------------------------------------------------
G|------11b12--9------------13--14------------------------15v--15-----4-----3-----------18---------
D|--11------------8-----------------15b16--15b16-------------------4-----3-----2------------18-----
A|-------------------7--12------------------------16--15--------------------------3/18-------------
E|-------------------------------------------------------------------------------------------------



E|-----------
B|-----------
G|-----------
D|--18\4--2--
A|--------2--
E|--------0--



E|------------------------------------------------------------------------
B|------------------------------------------------------------------------
G|--------------5---------------------------------------------------------
D|--5--7--5--2--5---------------------------------------------------------
A|--5--7--5--2--3--11--12--11--12--11--12--11--12------11--12--11--12-----
E|--3--5--3--0-------------------------------------12------------------0--



E|--------------------------------
B|--------------------------------
G|--------------------------3-----
D|--------5--------9-----3-----2--
A|-----5--------9-----1--------2--
E|--3--------7-----------------0--
http://www.guitartabcreator.com
Guitar Tab Creator is intended to store guitar tab created through the tool. It currently does not support in-line text editing. Any text you place in here will be lost. If you need to comment on your tab, please use the "Tab Notes" section located below.