WALK Bass

(/) Slide Up  (\) Slide Down  (h) Hammer On  (p) Pull Off  (b) Bend (r) Release (v) Vibrato

E|---------------------------------
B|---------------------------------
G|---------------------------------
D|---------------------------------
A|-0-0-0-0-0-0-0-0-0-0-0-0-0-0-0-0-
E|---------------------------------



E|---------------------------------------------------
B|---------------------------------------------------
G|---------------------------------------------------
D|---------------------------------------------------
A|-0/12-12-12-12-12-12-12-12-12-12-12-12-12-12-12-12-
E|---------------------------------------------------



E|---------------------------------
B|---------------------------------
G|---------------------------------
D|---------------------------------
A|-0-0-0-0-0-0-0-0-0-0-0-0-0-0-0-0-
E|---------------------------------



E|---------------------------------
B|---------------------------------
G|---------------------------------
D|---------------------------------
A|-------------------------------0-
E|-0-0-0-0-0-0-0-0-0-0-0-0-0-0-0---



E|---------------------------------
B|---------------------------------
G|---------------------------------
D|---------------------------------
A|-2-2-2-2-2-2-2-2-2-2-2-2-2-2-----
E|-----------------------------5-0-



E|---------------------------------
B|---------------------------------
G|---------------------------------
D|---------------------------------
A|-5-5-5-5-5-5-5-5-5-5-5-5-5-0-2-4-
E|---------------------------------



E|---------------------------------
B|---------------------------------
G|---------------------------------
D|---------------------------------
A|-0-0-0-0-0-0-0-0-0-0-0-0-0-0-0-0-
E|---------------------------------



E|---------------------------------
B|---------------------------------
G|---------------------------------
D|---------------------------------
A|-------------------------------0-
E|-0-0-0-0-0-0-0-0-0-0-0-0-0-0-0---



E|---------------------------------
B|---------------------------------
G|---------------------------------
D|---------------------------------
A|-2-2-2-2-2-2-2-2-2-2-2-2-2-2-----
E|-----------------------------5-0-



E|-------------------------------------
B|-------------------------------------
G|-------------------------------------
D|-------------------------------------
A|-5-5-5-5-7-7-7-7-8-8-8-8-10-10-10-10-
E|-------------------------------------



E|---------------------------------
B|---------------------------------
G|---------------------------------
D|---------------------------------
A|-0-0-0-0-0-0-0-0-0-0-0-0-0-0-0-0-
E|---------------------------------



E|---------------------------------
B|---------------------------------
G|---------------------------------
D|---------------------------------
A|-------------------------------0-
E|-0-0-0-0-0-0-0-0-0-0-0-0-0-0-0---



E|---------------------------------
B|---------------------------------
G|---------------------------------
D|---------------------------------
A|-2-2-2-2-2-2-2-2-2-2-2-2-2-2-----
E|-----------------------------5-0-



E|---------------------------------
B|---------------------------------
G|---------------------------------
D|---------------------------------
A|-5-5-5-5-7-7-7-7-----------------
E|-----------------1-1-1-1-3-3-3-3-



E|---------------------------------
B|---------------------------------
G|---------------------------------
D|---------------------------------
A|-0-0-0-0-0-0-0-0-0-0-0-0-0-0-0-0-
E|---------------------------------



E|---------------------------------
B|---------------------------------
G|---------------------------------
D|---------------------------------
A|-------------------------------0-
E|-0-0-0-0-0-0-0-0-0-0-0-0-0-0-0---



E|---------------------------------
B|---------------------------------
G|---------------------------------
D|---------------------------------
A|-2-2-2-2-2-2-2-2-2-2-2-2-2-2-----
E|-----------------------------5-0-



E|---------------------------------
B|---------------------------------
G|---------------------------------
D|---------------------------------
A|-5-5-5-5-7-7-7-7-8-8-8-8-5-5-5-5-
E|---------------------------------



E|---------------------------------
B|---------------------------------
G|---------------------------------
D|---------------------------------
A|-0-0-0-0-0-0-0-0-0-0-0-0-0-0-0-0-
E|---------------------------------



E|---------------------------------
B|---------------------------------
G|---------------------------------
D|---------------6-7-----7---6-7-7-
A|-0-0-0-0-0-0-0-----0-0---0-------
E|---------------------------------



E|---------------------------------
B|---------------------------------
G|---------------------------------
D|---------------------------------
A|---------------------------------
E|-0-0-0-0-0-0-0-0-0-0-0-0-0-0-0-0-



E|---------------------------------
B|---------------------------------
G|---------------------------------
D|---------------6-7---------------
A|---------------------------------
E|-0-0-0-0-0-0-0-----0-0-2-2-4-4-5-



E|---------------------------------
B|---------------------------------
G|---------------------------------
D|---------------------------------
A|-------------------------------0-
E|-2-2-2-2-2-2-2-2-2-2-2-2-2-2-2---



E|---------------------------------
B|---------------------------------
G|---------------------------------
D|---------------------------------
A|-5-5-5-5-5-5-5-5-3-3-3-3-3-3-3-3-
E|---------------------------------



E|---------------------------------
B|---------------------------------
G|---------------------------------
D|---------------------------------
A|-------------------------------0-
E|-2-2-2-2-2-2-2-2-2-2-2-2-2-2-2---



E|---------------------------------
B|---------------------------------
G|---------------------------------
D|---------------------------------
A|-5-5-5-5-5-5-5-5-4h5-0h2-4h5-0h2-
E|---------------------------------



E|---------------------------------
B|---------------------------------
G|---------------------------------
D|---------------------------------
A|-0------------------0---0--0-----
E|---------------------------------



E|---------------------------------
B|---------------------------------
G|---------------------------------
D|---------------------------------
A|---------------------------------
E|-0-0-0-0-0-0-0-0-0-0-0-0-0-0-4-0-



E|---------------------------------
B|---------------------------------
G|---------------------------------
D|---------------------------------
A|-2-2-2-2-2-2-2-2-2-2-2-2-2-2-----
E|-----------------------------5-0-



E|---------------------------------
B|---------------------------------
G|---------------------------------
D|---------------------------------
A|-5-5-5-5-7-7-7-7-----------------
E|-----------------1-1-1-1-3-3-3-3-



E|---------------------------------
B|---------------------------------
G|---------------------------------
D|---------------------------------
A|-0-0-0-0-0-0-0-0-0-0-0-0-0-0-0-0-
E|---------------------------------



E|---------------------------------
B|---------------------------------
G|---------------------------------
D|---------------------------------
A|---------------------------------
E|-0-0-0-0-0-0-0-0-0-0-0-0-0-0-4-0-



E|---------------------------------
B|---------------------------------
G|---------------------------------
D|---------------------------------
A|-2-2-2-2-2-2-2-2-2-2-2-2-2-2-----
E|-----------------------------5-0-



E|---------------------------------
B|---------------------------------
G|---------------------------------
D|---------------------------------
A|-5-5-5-5-7-7-7-7-----------------
E|-----------------1-1-1-1-3-3-3-3-



E|-----------------------------------
B|-----------------------------------
G|-----------------------------------
D|-----------------------------------
A|-0-0-0-0-0-0-0-0-0-0-0-0-0-0-2-0---
E|-----------------------------------



E|-----------------------------------
B|-----------------------------------
G|-----------------------------------
D|-----------------------------------
A|---------------------------------0-
E|-2-0-0-0-0-0-0-0-0-0-0-0-0-0-2-0---



E|---------------------------------
B|---------------------------------
G|---------------------------------
D|---------------------------------
A|-2-2-2-2-2-2-2-2-2-2-2-2-2-2-----
E|-----------------------------5-0-



E|---------------------------------
B|---------------------------------
G|---------------------------------
D|---------------------------------
A|-5-5-5-5-7-7-7-7-----------------
E|-----------------1-1-1-1-3-3-3-3-



E|---------------------------------
B|---------------------------------
G|---------------------------------
D|---------------------------------
A|-0-0-0-0-0-0-0-0-0-0-0-0-0-0-2-0-
E|---------------------------------



E|-----------------------------------
B|-----------------------------------
G|-----------------------------------
D|-----------------------------------
A|---------------------------------0-
E|-2-0-0-0-0-0-0-0-0-0-0-0-0-0-2-0---



E|---------------------------------
B|---------------------------------
G|---------------------------------
D|---------------------------------
A|-2-2-2-2-2-2-2-2-2-2-2-2-2-2-----
E|-----------------------------5-0-



E|---------------------------------
B|---------------------------------
G|---------------------------------
D|---------------------------------
A|-5-5-5-5-3-3-3-3-----------------
E|-----------------1-1-1-1-3-3-3-3-



E|-------------------------------------
B|-------------------------------------
G|-------------------------------------
D|-------------------------------------
A|-5-5-5-5-3-3-3-3-8-8-8-8-10-10-10-10-
E|-------------------------------------



E|---------------------------------
B|---------------------------------
G|---------------------------------
D|---------------------------------
A|-0-0-0-0-0-0-0-0-0-0-0-0-0-0-0-0-
E|---------------------------------



E|---------------------------------------------------------------
B|---------------------------------------------------------------
G|---------------------------------------------------------------
D|---------------------------------------------------------------
A|--0/12--12--12--12--12--12--12--12--12--12--12--12--12--12--0--
E|---------------------------------------------------------------
http://www.guitartabcreator.com
Guitar Tab Creator is intended to store guitar tab created through the tool. It currently does not support in-line text editing. Any text you place in here will be lost. If you need to comment on your tab, please use the "Tab Notes" section located below.