kasabian-fire

(/) Slide Up  (\) Slide Down  (h) Hammer On  (p) Pull Off  (b) Bend (r) Release (v) Vibrato


E|-------------------------------------------------------------------------------
B|-------------------------------------------------------------------------------
G|-------------------------------------------------------------------------------
D|-----10-----10-----10------15------13------13------13------13------13------13--
A|-------------------------------------------------------------------------------
E|--8------8------8------13------11------11------11------11------11------11------



E|-----------------------------------------------
B|-----------------------------------------------
G|-----------------------------------------------
D|------15-----8-----10------12------13------15--
A|-----------------------------------------------
E|--13------6-----8------10------11------13------
http://www.guitartabcreator.com
Guitar Tab Creator is intended to store guitar tab created through the tool. It currently does not support in-line text editing. Any text you place in here will be lost. If you need to comment on your tab, please use the "Tab Notes" section located below.