Honey Baby - Three Plus

(/) Slide Up  (\) Slide Down  (h) Hammer On  (p) Pull Off  (b) Bend (r) Release (v) Vibrato


E|----7-8-7-10-10-10-10-7-7h8-10-10-10-10-10-10-8-7-------------
B|---8----------------------------------------------8---------8-
G|--7-------------------------------------------------7-7-7h9---
D|--------------------------------------------------------------
A|--------------------------------------------------------------
E|--------------------------------------------------------------


E|------------------------------------7h8-7-5-5/7-7h8-----
B|------8-----8-----------7-8-----7-8-----------------8---
G|--7h9---7hp---7h9-7-7h8-----7h8-------------------------
D|--------------------------------------------------------
A|--------------------------------------------------------
E|--------------------------------------------------------
Guitar Tab Creator is intended to store guitar tab created through the tool. It currently does not support in-line text editing. Any text you place in here will be lost. If you need to comment on your tab, please use the "Tab Notes" section located below.