Slow

(/) Slide Up  (\) Slide Down  (h) Hammer On  (p) Pull Off  (b) Bend (r) Release (v) Vibrato


E|--------------------------------------------------------------------
B|--------------------------------------------------------------------
G|-----------0-----------0--------------------0-----------0-----------
D|--------0-----0-----0--------------------0-----0-----0--------------
A|-----0-----------0--------------------0-----------0-----------------
E|--0-----------------------0--0--0--0-----------------------0--0--0--



E|-----------------------------------------------------
B|-----0-----------------------------------------------
G|-----0-----0-----------------------------------------
D|-----------0-----0-----------0-----------0-----------
A|-----------------0-----0-----0-----0-----0-----0-----
E|-----------------------0-----------0-----------0-----



E|-----------------------
B|-----------------------
G|-----------0-----------
D|-----0-----0-----0-----
A|-----0-----0-----0-----
E|-----0-----------0-----



E|---------------------------------------------------
B|---------------------------------------------------
G|-------------------------0---0---0---0---------0---
D|-----0---0---0---0-----0---0---0---0-------0-------
A|---0---0---0---0-----0-----------------0---------0-
E|-0-----------------0---------------------0---0-----



E|----------------------
B|-0-12-11-10-11-10-9---
G|--------------------0-
D|----------------------
A|--------------------0-
E|----------------------



E|-----------------------------------------------------------------
B|-----------------------------------------------------------------
G|-----0---12----11----10----9---8---7---6---5---4---3---2---1-----
D|-0---------------------------------------------------------------
A|-------0----12----11----10---9---8---7---6---5---4---3---2---1---
E|---0-----------------------------------------------------------0-
http://www.guitartabcreator.com
Guitar Tab Creator is intended to store guitar tab created through the tool. It currently does not support in-line text editing. Any text you place in here will be lost. If you need to comment on your tab, please use the "Tab Notes" section located below.