IWTW

(/) Slide Up  (\) Slide Down  (h) Hammer On  (p) Pull Off  (b) Bend (r) Release (v) Vibrato


E|--1--1--1--1--1--1--2--2--2--2--2--2--3--3--3--2--2--2--1--1--1--0--0--0--
B|--------------------------------------------------------------------------
G|--------------------------------------------------------------------------
D|--------------------------------------------------------------------------
A|--------------------------------------------------------------------------
E|--------------------------------------------------------------------------



E|--------------
B|--------------
G|--7--------5--
D|--7--------5--
A|--5--------3--
E|--------------



E|--------------------------------------------------
B|--------------------------------------------------
G|--7--7--7--7--7--7--7--7--5--5--5--5--3--3--3--3--
D|--7--7--7--7--7--7--7--7--5--5--5--5--3--3--3--3--
A|--5--5--5--5--5--5--5--5--3--3--3--3--1--1--1--1--
E|--------------------------------------------------
http://www.guitartabcreator.com
Guitar Tab Creator is intended to store guitar tab created through the tool. It currently does not support in-line text editing. Any text you place in here will be lost. If you need to comment on your tab, please use the "Tab Notes" section located below.