Unorofka akordy

(/) Slide Up  (\) Slide Down  (h) Hammer On  (p) Pull Off  (b) Bend (r) Release (v) Vibrato


E|-----------------
B|-----------------
G|--6--5--5--7--5--
D|--4--3--5--5--5--
A|--5--3--3--5--5--
E|-----3--3--5--5--



E|---------------
B|---------------
G|--7--10--5--6--
D|--5--10--3--4--
A|--5--8---3--5--
E|--5--8---3--0--



E|--------
B|--------
G|--7--7--
D|--5--5--
A|--7--7--
E|--7--0--
http://www.guitartabcreator.com
Guitar Tab Creator is intended to store guitar tab created through the tool. It currently does not support in-line text editing. Any text you place in here will be lost. If you need to comment on your tab, please use the "Tab Notes" section located below.