Twangy bluegrass rock thing

(/) Slide Up  (\) Slide Down  (h) Hammer On  (p) Pull Off  (b) Bend (r) Release (v) Vibrato

E|--8-------------------------|-----------------------0-----|--
B|----------------------------|-----------------------------|--
G|-----9-----8--------7p0-----|--5--------7h8p7p5--------8--|--
D|--------------7-------------|-----7--------------7--------|--
A|--------0-------------------|--------0--------------------|--
E|-----------------8-------6--|-----------------------------|--



E|--8-------------------------|-----------------------------|--
B|----------------------------|-----------------------------|--
G|-----9-----8--------7p0-----|--5-----------------------0--|--
D|--------------7-------------|-----7-----7h8p7p5-----0-----|--
A|--------0-------------------|--------0--------------------|--
E|-----------------8-------6--|--------------------6--------|--
http://www.guitartabcreator.com
Guitar Tab Creator is intended to store guitar tab created through the tool. It currently does not support in-line text editing. Any text you place in here will be lost. If you need to comment on your tab, please use the "Tab Notes" section located below.