slow heavy one (drop D tuning)

(/) Slide Up  (\) Slide Down  (h) Hammer On  (p) Pull Off  (b) Bend (r) Release (v) Vibrato

(W|WW) Whole (H|HH) Half (Q|QQ) Quarter (E|EE) 8th (S|SS) 16th (T|TT) 32nd (X|XX) 64th

t: E undefined Q Q E E E Q E E E undefined E Q Q E Q Q E E E undefined E undefined E undefined E undefined undefined
E|--------------------|-----------------|------------------|-----------------|--
B|--------------------|-----------------|------------------|-----------------|--
G|--------------------|-----------------|------------------|-----------------|--
D|--------------3-----|-----------------|------------3-----|-----------------|--
A|-----------5-----5--|-------5---------|---------5-----5--|-----------------|--
E|--0-----------------|--6---------0----|--3---------------|--0----3----5----|--


t: E undefined Q E E E E Q E E E E E Q E E Q E E E E E E E E E E undefined undefined
E|--------------------|-----------------|-----------------|-----------------|--
B|--------------------|-----------------|--------------0--|------------8----|--
G|--------------------|-------0---------|---------0-------|------------0----|--
D|--------------2-----|------------3----|--2--------------|-------5---------|--
A|-----------2-----2--|--0h1------------|-----------------|--6--------------|--
E|--2-----------------|-----------------|-----------------|-----------------|--


t: E undefined E E E E E E E E E E E E E E Q E E E E E EE E EE E E E undefined
E|-----------------|-------------------|-----------------|---------------------|--
B|-----------------|-------------------|-----------------|---------------------|--
G|-----------------|-------------------|-----------------|---------------------|--
D|--7--------7--7--|--7--------7-------|--8----8---------|--10----10-----------|--
A|--7--------7--7--|--7--------7-------|--8----8---------|--10----10-----------|--
E|--7--------7--7--|--7--------7--7p0--|--8----8----8p0--|--10----10--6--6--6--|--


t: E undefined E E E E E E E E E E E E E E E E E E
E|---------------------------|---------------------------|--
B|---------------------------|---------------------------|--
G|---------------------------|---------------------------|--
D|---------------------------|---------------------------|--
A|------------------1--1--1--|---------------------------|--
E|--0----0--0----0--1--1--1--|--0----0--0----0--6--6--6--|--


t: E undefined E E E E E E E E E E E E E E E E E EE E
E|---------------------------|--------------------------------|-----
B|---------------------------|----------------------------10--|-----
G|---------------------------|----------------------------10--|-----
D|---------------------------|--------------------------------|-----
A|------------------1--1--1--|----------3--3--3--6--6--6------|-----
E|--0----0--0----0--1--1--1--|--0----0--3--3--3--6--6--6------|-----


t: E undefined E E E E E E E E E E E E E E E E E E
E|---------------------------|----------------------------|--
B|---------------------------|----------------------------|--
G|---------------------------|----------------------------|--
D|---------------------------|----------------------------|--
A|------------------1--1--1--|----------3--3--3--6--6--6--|--
E|--0----0--0----0--1--1--1--|--0----0--3--3--3--6--6--6--|--


t: E undefined E E E E E E E E E E E E E E E E E E E E E E E E
E|-----------------|-----------------|-----------------|-------------|--
B|-----------------|-----------------|-----------------|-------------|--
G|-----------------|-----------------|-----------------|-------------|--
D|--5------5--5----|--5------5--5----|--5------5--5----|--5----5--6--|--
A|--5------5--5----|--5------5--5----|--5------5--5----|--5----5--6--|--
E|--5------5--5----|--5------5--5----|--5------5--5----|--5----5--6--|--


t: E undefined E E E E E E E E E E E E E E E E E E E E E E E E
E|-----------------|-----------------|-----------------|--------------|--
B|-----------------|-----------------|-----------------|--------------|--
G|-----------------|-----------------|-----------------|--------------|--
D|--7------7--7----|--7------7--7----|--7------7--7----|--------------|--
A|--7------7--7----|--7------7--7----|--7------7--7----|--7--8--7--6--|--
E|--7------7--7----|--7------7--7----|--7------7--7----|--7--8--7--6--|--


t: E undefined E E E E E E E E E E E E E E E E E E E E E E E E E E
E|-----------------|-----------------|-----------------|-----------------|--
B|-----------------|-----------------|-----------------|-----------------|--
G|-----------------|-----------------|-----------------|-----------------|--
D|--5------5--5----|--5------5--5----|--5------5--5----|--5------5-------|--
A|--5------5--5----|--5------5--5----|--5------5--5----|--5------5-------|--
E|--5------5--5----|--5------5--5----|--5------5--5----|--5------5--5p0--|--


t: E undefined E E E E E E E E E E E E E E E E E E E E E E E E E undefined
E|-----------------|-----------------|-----------------|-----------------|--
B|-----------------|-----------------|-----------------|-----------------|--
G|-----------------|-----------------|-----------------|-----------------|--
D|--3------3--3----|--3------3-------|--2------2-------|--1------1-------|--
A|--3------3--3----|--3------3-------|--2------2-------|--1------1-------|--
E|--3------3--3----|--3------3--3p0--|--2------2--2p0--|--1------1--1p0--|--


t: E undefined E E E E E E E EE E E E E E E E E E E E E E E E E E E
E|-----------------|-------------------|-----------------|-----------------|--
B|-----------------|-------------------|-----------------|-----------------|--
G|-----------------|-------------------|-----------------|-----------------|--
D|--0------0--0----|-------------------|--3------3--3----|-----------------|--
A|--0------0--0----|--6----/12----0----|--3------3--3----|--0----3----5----|--
E|--0------0--0----|--6-----12----0----|--3------3--3----|--0----3----5----|--


t: E undefined E E E E E E E E E E E E E E E E E E E E E E E E E E undefined undefined
E|-----------------|------------------|-------------------|-------------------|--
B|-----------------|------------------|-------------------|-------------------|--
G|-----------------|------------------|-------------------|-------------------|--
D|--2------2--2----|------------------|--2------2---------|--1------1---------|--
A|--2------2--2----|--7--8--5----3----|--2------2---------|--1------1---------|--
E|--2------2--2----|--7--8--5----3----|--2------2--2p0----|--1------1--1p0----|--


t: E undefined E E E E E E E E E E E E E E E E E E E EE E EE E E E E undefined
E|-----------------|-----------------|-----------------|-----------------------|--
B|-----------------|-----------------|-----------------|-----------------------|--
G|-----------------|-----------------|-----------------|-----------------------|--
D|--7------7--7----|--7------7-------|--8------8-------|--10----10-------------|--
A|--7------7--7----|--7------7-------|--8------8-------|--10----10-------------|--
E|--7------7--7----|--7------7--7p0--|--8------8--8p0--|--10----10----6--6--6--|--
http://www.guitartabcreator.com
Guitar Tab Creator is intended to store guitar tab created through the tool. It currently does not support in-line text editing. Any text you place in here will be lost. If you need to comment on your tab, please use the "Tab Notes" section located below.