rhythm part for TBRT

(/) Slide Up  (\) Slide Down  (h) Hammer On  (p) Pull Off  (b) Bend (r) Release (v) Vibrato

E|-----------------------------------|--------------------------------|-----
B|-----------------------------------|--------------------------------|-----
G|--------------------0--------------|--------------------------------|-----
D|--------------------------------0--|--------------------------------|-----
A|-------0---------------------------|-------0----------0----------0--|-----
E|--7/8-----0--10/11-----0--8/10-----|--7/8-----0--7/8-----0--7/8-----|-----



E|-----------------------------------|---------------------------------|--
B|-----------------------------------|---------------------------------|--
G|--------------------0--------------|---------------------------------|--
D|--------------------------------0--|---------------------------------|--
A|-------0---------------------------|-------0----------0-----8--------|--
E|--7/8-----0--10/11-----0--8/10-----|--7/8-----0--7/8-----0--6--------|--
http://www.guitartabcreator.com
Guitar Tab Creator is intended to store guitar tab created through the tool. It currently does not support in-line text editing. Any text you place in here will be lost. If you need to comment on your tab, please use the "Tab Notes" section located below.