Hook for TBRT

(/) Slide Up  (\) Slide Down  (h) Hammer On  (p) Pull Off  (b) Bend (r) Release (v) Vibrato

E|----------------------0-----|-------------------------|-------------------------|-----
B|----------------------------|-------------------------|-------------------------|-----
G|--------2--------3/5-----5--|--------7----------------|--------9----------------|-----
D|-----0--------0-------------|-----0-------------------|-----0-------------------|-----
A|----------------------------|-------------------------|-------------------------|-----
E|--1--------3-------5--------|--6----------------------|--8----------------------|-----



E|---------------------------|-----
B|---------------------------|-----
G|--------7------------------|-----
D|-----0---------------------|-----
A|---------------------------|-----
E|--7------------------------|-----



E|----------------------0-----|-------------------------|-------------------------|--
B|----------------------------|-------------------------|-------------------------|--
G|--------2--------3/5-----5--|--------7----------------|--------9----------------|--
D|-----0--------0-------------|-----0-------------------|-----0-------------------|--
A|----------------------------|-------------------------|-------------------------|--
E|--1--------3-------5--------|--6----------------------|--8----------------------|--



E|------------------------------|------------------------------|--
B|--9---9---9---9---9---9-------|--10--10--10--10--10--10------|--
G|--11--11--11--11--11--11--11--|--11--11--11--11--11--11--11--|--
D|--0---0---0---0---0---0---0---|--0---0---0---0---0---0---0---|--
A|--------------------------0---|--------------------------0---|--
E|--10--10--10--10--10--10------|--10--10--10--10--10--10------|--



E|------------------------------|-------------------------------|-----
B|--9---9---9---9---9---9-------|--10--10--10--10---------------|-----
G|--11--11--11--11--11--11--11--|--11--11--11--11------------0--|-----
D|--0---0---0---0---0---0---0---|--0---0---0---0----------0-----|-----
A|--------------------------0---|-------------------------------|-----
E|--10--10--10--10--10--10------|--10--10--10--10------6--------|-----
http://www.guitartabcreator.com
Guitar Tab Creator is intended to store guitar tab created through the tool. It currently does not support in-line text editing. Any text you place in here will be lost. If you need to comment on your tab, please use the "Tab Notes" section located below.