Ballady type song

(/) Slide Up  (\) Slide Down  (h) Hammer On  (p) Pull Off  (b) Bend (r) Release (v) Vibrato
E|--12----12p0----12--10--0---0---|--8------8p0----8------7------0------------|--
B|--0-----0-----------0---10--0---|--6------6------6------6------6------------|--
G|--9-----9-------9---9---9---9---|--7------7------7------7------7------------|--
D|--10----10------10--10--10--10--|--0------0------0------0------0------------|--
A|--0-----0-------0---0---0---0---|--0------0------0------0------0------------|--
E|--------------------------------|-------------------------------------------|--



E|--5----------5--5----|--5----3----1----0----|--1----------------------------|--
B|--6----------6--6----|--3----3----3----3----|--3------3------3--------------|--
G|--4----------4--4----|--3----3----3----3----|--2------2------3--------------|--
D|--0----------0--0----|--0----0----0----0----|--0------2------0--------------|--
A|---------------------|----------------------|---------0------1--------------|--
E|---------------------|----------------------|-------------------------------|--



E|--------------------------|------------------------|-----------0--0----0--0----3----3--3--3--3--|--
B|--3------3----------------|---------3--3--3--3--3--|-----------0--0----0--0----0----0--0--0--0--|--
G|--0------0----------------|---------3--3--3--3--3--|--3h4p3p1--1--1----1--1----0----0--0--0--0--|--
D|--2------3----------------|--2------2--2--2--2--2--|-----------2--2----2--2----2----2--2--2--2--|--
A|--1------1------3p1p0-----|--2------2--2--2--2--2--|-----------2--2----2--2----2----2--2--2--2--|--
E|-----------------------1--|--0------0--0--0--0--0--|-----------0--0----0--0----0----0--0--0--0--|--



E|--0------0----------------|--
B|--0------0----------------|--
G|--3------4----------------|--
D|--4------5----------------|--
A|--4------5----------------|--
E|--0------0----------------|--
http://www.guitartabcreator.com
Guitar Tab Creator is intended to store guitar tab created through the tool. It currently does not support in-line text editing. Any text you place in here will be lost. If you need to comment on your tab, please use the "Tab Notes" section located below.