Capital Lead

(/) Slide Up  (\) Slide Down  (h) Hammer On  (p) Pull Off  (b) Bend (r) Release (v) Vibrato

E|--14--14--14--14--12------------------12--14--14--14--14--12------------------12--
B|----------------------15------15------------------------------15------15----------
G|--------------------------14------14------------------------------14------14------
D|----------------------------------------------------------------------------------
A|----------------------------------------------------------------------------------
E|----------------------------------------------------------------------------------



E|--12--12--12--12----------------------12--12--12--12--12----------------------12--
B|------------------15----------15--------------------------15----------15----------
G|----------------------12--12------12--------------------------12--12------12------
D|----------------------------------------------------------------------------------
A|----------------------------------------------------------------------------------
E|----------------------------------------------------------------------------------
http://www.guitartabcreator.com
Guitar Tab Creator is intended to store guitar tab created through the tool. It currently does not support in-line text editing. Any text you place in here will be lost. If you need to comment on your tab, please use the "Tab Notes" section located below.