Born Unto Darkness

(/) Slide Up  (\) Slide Down  (h) Hammer On  (p) Pull Off  (b) Bend (r) Release (v) Vibrato

E|-----------------------------------
B|-----6-----5-----3-----1-----------
G|--3-----3-----3-----3-----3--3--2--
D|-----------------------------------
A|-----------------------------------
E|-----------------------------------



E|-----------------
B|-----------------
G|-----------------
D|--8--7--5--3--2--
A|--6--5--1--1--0--
E|-----------------
http://www.guitartabcreator.com
Guitar Tab Creator is intended to store guitar tab created through the tool. It currently does not support in-line text editing. Any text you place in here will be lost. If you need to comment on your tab, please use the "Tab Notes" section located below.