400 Miles

(/) Slide Up  (\) Slide Down  (h) Hammer On  (p) Pull Off  (b) Bend (r) Release (v) Vibrato

E|---------------------------------------------------------------
B|--2-----2p0--------3-----3/5\3p0--1-----1-----1-----1p0--------
G|-----0-------0--------0--------------0-----0-----0-------0-----
D|----------------0-------------------------------------------0--
A|--0----------------2--------------3----------------------------
E|---------------------------------------------------------------



E|----------------------------------------------------------
B|--2-----2p0--------3-----3/5\3p0--1-----0-----1-----0-----
G|-----0-------0--------0--------------0-----0-----0-----0--
D|----------------0-----------------------------------------
A|--0----------------2--------------3-----------------------
E|----------------------------------------------------------



E|--------------------------------------------------
B|--2-----2-----3-----3-----1-----1-----1-----1-----
G|-----0-----0-----0-----0-----0-----0-----0-----0--
D|--------------------------------------------------
A|--0-----------2-----------3-----------------------
E|--------------------------------------------------
http://www.guitartabcreator.com
Guitar Tab Creator is intended to store guitar tab created through the tool. It currently does not support in-line text editing. Any text you place in here will be lost. If you need to comment on your tab, please use the "Tab Notes" section located below.