Joy to the World Solo- Lincoln Brewster_ Tab created by Joey Atansio

(/) Slide Up  (\) Slide Down  (h) Hammer On  (p) Pull Off  (b) Bend (r) Release (v) Vibrato

E|--21b21--19--17--12--14--10--------------10--14--10--------------12--17--12-----------------
B|-----------------------------14--10--14--------------14--10--14--------------15--14--15-----
G|--------------------------------------------------------------------------------------------
D|--------------------------------------------------------------------------------------------
A|--------------------------------------------------------------------------------------------
E|--------------------------------------------------------------------------------------------



E|--15--19--15--------------15--19--15--------------15--19--15--19--15--------------------------
B|--------------19--15--19--------------19--15--19----------------------19--15--19--15--17--19--
G|----------------------------------------------------------------------------------------------
D|----------------------------------------------------------------------------------------------
A|----------------------------------------------------------------------------------------------
E|----------------------------------------------------------------------------------------------



E|--15--17--19--21--21b21--19--17--21--17--15--14--14--14--12--12--14--12---------------------
B|-----------------------------------------15--15--15--15--15--15--15--15--------------15-----
G|-------------------------------------------------------------------------14--16--18---------
D|--------------------------------------------------------------------------------------------
A|--------------------------------------------------------------------------------------------
E|--------------------------------------------------------------------------------------------



E|----------------------15--17--19v--
B|--17--19--15--17--19---------------
G|-----------------------------------
D|-----------------------------------
A|-----------------------------------
E|-----------------------------------
http://www.guitartabcreator.com
Guitar Tab Creator is intended to store guitar tab created through the tool. It currently does not support in-line text editing. Any text you place in here will be lost. If you need to comment on your tab, please use the "Tab Notes" section located below.