Another Hallelujah Solo- Lincoln Brewster_ tab created by Joey Atansio

(/) Slide Up  (\) Slide Down  (h) Hammer On  (p) Pull Off  (b) Bend (r) Release (v) Vibrato


E|---------17h19p17--20p17--19--19h20p19p17------19--20--19--17------19--20--19--17------
B|--20b21------------------------------------20------------------20------------------20--
G|---------------------------------------------------------------------------------------
D|---------------------------------------------------------------------------------------
A|---------------------------------------------------------------------------------------
E|---------------------------------------------------------------------------------------



E|--19--17-----------------------------------------------------------------------
B|----------20--17------20--17---------------------------------------------------
G|------------------19----------19--17----------19--17---------------------------
D|--------------------------------------19--17----------19--17-------------------
A|--------------------------------------------------------------19--17--15--17v--
E|-------------------------------------------------------------------------------



E|----------------------------------------------20------20------20------19b20----------20-----
B|--13--15--15b17--15b17--13--15v--13--15--13v---------------------------------20-------------
G|--------------------------------------------------17------17------17-------------17---------
D|--------------------------------------------------------------------------------------------
A|--------------------------------------------------------------------------------------------
E|--------------------------------------------------------------------------------------------



E|------19b20----------20------19b20-------------------------------
B|-------------20---------------------20------17--20---------------
G|--17-------------17------17-------------19----------19--17--16v--
D|-----------------------------------------------------------------
A|-----------------------------------------------------------------
E|-----------------------------------------------------------------



E|--------------------------------------------------------------------------------------------
B|--15b17--15b17--13--------------------------------------------------------------------------
G|--------------------14v--14--15--14--12-----------------------------------------------------
D|-----------------------------------------14--12--10------10--12--10--------------10--12-----
A|-----------------------------------------------------12--------------12--10--12-------------
E|--------------------------------------------------------------------------------------------



E|-------------------------------------------------------------------
B|-------------------------12--13--15--15b17--15b17--13--15--15------
G|---------------------12----------------------------------------12--
D|--10--12--10--12/14------------------------------------------------
A|-------------------------------------------------------------------
E|-------------------------------------------------------------------



E|--20------20------20------20------20------20------20------20--19--17--15--13--12--10--8--20--
B|---------------------------------------------------------------------------------------------
G|------17------17------17------17------17------17------17--17--16--14--12--10--9---7---5--17--
D|---------------------------------------------------------------------------------------------
A|---------------------------------------------------------------------------------------------
E|---------------------------------------------------------------------------------------------
http://www.guitartabcreator.com
Guitar Tab Creator is intended to store guitar tab created through the tool. It currently does not support in-line text editing. Any text you place in here will be lost. If you need to comment on your tab, please use the "Tab Notes" section located below.