Baby Mine (as performed by Alison Krauss)

(/) Slide Up  (\) Slide Down  (h) Hammer On  (p) Pull Off  (b) Bend (r) Release (v) Vibrato

Stave 1:

E|-----------2-----------------------------------4-----------------4--------
B|--------4-----4-----------4--5--4--2--------5-----5-----------5-----5-----
G|-----4-----------4-----4-----6-----------6-----------6-----6-----------6--
D|--4-----------------4-----------------6-----------------6-----------------
A|--------------------------------------------------------------------------
E|--------------------------------------------------------------------------

Stave 2:

E|-----------2-----------------------------------4-----------------4--2--0--
B|--------4-----4-----------4--5--4--2--------5-----5-----------5-----------
G|-----4-----------4-----4-----6-----------6-----------6-----6--------------
D|--4-----------------4-----------------6-----------------6-----------------
A|--------------------------------------------------------------------------
E|--------------------------------------------------------------------------

Stave 3:

E|-----------2-----------------2-----------------4-----------------4--------
B|--------4-----4-----------4-----4-----------5-----5-----------5-----5-----
G|-----4-----------4-----4-----------4-----6-----------6-----6-----------6--
D|--4-----------------4-----------------6-----------------6-----------------
A|--------------------------------------------------------------------------
E|--------------------------------------------------------------------------

Stave 4:

E|-----------7-----------------7-----------------4--------------------------
B|--------9-----9-----------9-----9-----------5-----5--------------2--------
G|-----9-----------9-----9-----------9-----6-----------6--------3-----3-----
D|--9-----------------9-----------------6--------------------4-----------4--
A|--------------------------------------------------------4-----------------
E|--------------------------------------------------------------------------

Stave 5:

E|--------------------------------------------------------------------------
B|--------------------------------------------------------------------------
G|-----------4-----------------8-----------------8--------------9--------8--
D|--------6-----6-----------9-----9-----------9-----9--------9--------8-----
A|-----6-----------6-----9-----------9-----9-----------9--7--------6--------
E|--4-----------------7-----------------7-----------------------------------

Stave 6:

E|-----------------------------------------------------------------------------
B|-----------------------------------------------7-----------------------------
G|-----------4-----------------4--------------8-----8--------------------------
D|--------6-----6-----------6-----6--------8-----------8--------6--------4-----
A|-----6-----------6-----6-----------6--6--------------------6--------4--------
E|--4-----------------4-----------------------------------4--------2-----------

Stave 7:

E|--------------------------------------6--4--2--
B|-----------5-----------------5--------7--5--2--
G|--------6-----6-----------6-----6-----8--6--1--
D|-----6-----------6-----6-----------6--8--6--2--
A|--4-----------------4-----------------6--4--4--
E|--------------------------------------------2--

http://www.guitartabcreator.com
Guitar Tab Creator is intended to store guitar tab created through the tool. It currently does not support in-line text editing. Any text you place in here will be lost. If you need to comment on your tab, please use the "Tab Notes" section located below.