Unnamed 1

(/) Slide Up  (\) Slide Down  (h) Hammer On  (p) Pull Off  (b) Bend (r) Release (v) Vibrato


E|--------------------------------------------------------------------------
B|--------------------------------------------------------------------------
G|--------------------------------------------------------------------------
D|--------------------------------------------------------------------------
A|--------------------------------------------------------------------------
E|--5--5--5--7--5--5--5--8--5--5--7--5p5--5--5--7--5--5--5--8--5--5--7--7v--



E|-----------------------------------------------------------------------------
B|-----------------------------------------------------------------------------
G|-----------------------------------------------------------------------------
D|-----------------------------------------------------------------------------
A|--5--5--5--7--5--5--5--8--5--5--7--5----5--5--5--7--5--5--5--8--5--5--7--7v--
E|-----------------------------------------------------------------------------



E|---------------------------------------------------------------------
B|---------------------------------------------------------------------
G|---------------------------------------------------------------------
D|---------------------------------------------------------------------
A|-----5-----5----------------5-----5----------------5-----5-----------
E|--8-----8-----8--7--5----8-----8-----8--7--5----8-----8-----8--7--5--



E|----------------------------------
B|----------------------------------
G|----------------------------------
D|-----------------2--3--2--3--5/7--
A|--2--3--2--3--0-------------------
E|----------------------------------
http://www.guitartabcreator.com
Guitar Tab Creator is intended to store guitar tab created through the tool. It currently does not support in-line text editing. Any text you place in here will be lost. If you need to comment on your tab, please use the "Tab Notes" section located below.