First Form Van eps

(/) Slide Up  (\) Slide Down  (h) Hammer On  (p) Pull Off  (b) Bend (r) Release (v) Vibrato


E|-----------------1----3----5----7----8----8----7----5----3----1-----------------
B|--1----3----5----1----3----6----6----8----8----6----6----3----1----5----3----1--
G|--0----2----4----2----4----5----7----9----9----7----5----4----2----4----2----0--
D|--2----3----5------------------------------------------------------5----3----2--
A|--------------------------------------------------------------------------------
E|--------------------------------------------------------------------------------



E|--------------------------------------------------------------------------------------
B|--1----3----5----6----8----10----12----13----13----12----10----8----6----5----3----1--
G|--0----2----4----5----7----10----10----12----12----10----10----7----5----4----2----0--
D|--2----3----5----7----9----10----12----14----14----12----10----9----7----5----3----2--
A|--------------------------------------------------------------------------------------
E|--------------------------------------------------------------------------------------
http://www.guitartabcreator.com
Guitar Tab Creator is intended to store guitar tab created through the tool. It currently does not support in-line text editing. Any text you place in here will be lost. If you need to comment on your tab, please use the "Tab Notes" section located below.