Song Writing Project TAB Jean-Luc Campbell CNM

(/) Slide Up  (\) Slide Down  (h) Hammer On  (p) Pull Off  (b) Bend (r) Release (v) Vibrato


E|------------------------------------------------------------------
B|----------12--13--12----------------------------------12--13--12--
G|--12--14----------------------11--12--11------11--12--------------
D|----------------------12--14--------------14----------------------
A|------------------------------------------------------------------
E|------------------------------------------------------------------



E|------------------------------------------------------------------
B|--------------12--13--12----------------------13--12--------------
G|--14--12--14----------------------11--12--11----------14--12--11--
D|--------------------------12--14----------------------------------
A|------------------------------------------------------------------
E|------------------------------------------------------------------



E|------------------------------------------------------------------
B|------------------------------------------------------------------
G|------11--12--------------11----------------------12--11------11--
D|--14----------14--12--14------12------12--14--------------14------
A|----------------------------------15----------15------------------
E|------------------------------------------------------------------



E|------------------------------------------------------------------
B|----------12--13--12----------------------13--12------------------
G|--12--14----------------------11--12--11----------14--12--11--12--
D|----------------------12--14--------------------------------------
A|------------------------------------------------------------------
E|------------------------------------------------------------------
http://www.guitartabcreator.com
Guitar Tab Creator is intended to store guitar tab created through the tool. It currently does not support in-line text editing. Any text you place in here will be lost. If you need to comment on your tab, please use the "Tab Notes" section located below.