Blues Tab

(/) Slide Up  (\) Slide Down  (h) Hammer On  (p) Pull Off  (b) Bend (r) Release (v) Vibrato


E|--------------------------------------------------------------7h8p7--5h7p5--3h5p3--0----------
B|--------------------------------------------------------------------------------------3--3h5--
G|----------0----------0-------------------0----------------------------------------------------
D|-----0h2--------0h2-----0h2p0-------0h2-----2--0----------------------------------------------
A|--2----------0-----------------0h2----------------2--0----------------------------------------
E|--------------------------------------------------------3--0----------------------------------



E|---------------------------------------------------------------------------------------------|
B|------------0--------0-----------------------------------------------------------------------|
G|------------0--------0--------0--------------------------------------------------------------|
D|-------0h2-----0--------------2--------------------------------------------------------------|
A|--0h2-------------2-----0--------------------------------------------------------------------|
E|---------------------------3----0------------------------------------------------------------|
http://www.guitartabcreator.com
Guitar Tab Creator is intended to store guitar tab created through the tool. It currently does not support in-line text editing. Any text you place in here will be lost. If you need to comment on your tab, please use the "Tab Notes" section located below.