Open Season

(/) Slide Up  (\) Slide Down  (h) Hammer On  (p) Pull Off  (b) Bend (r) Release (v) Vibrato


E|-----------------------------
B|-----------------------------
G|-----------------------------
D|-----4-----4-----4-----4-----
A|--0-----0-----0-----0--------
E|--0-----0-----0-----0--------



E|--------------------------
B|--------------------------
G|-----4-----4-----4-----4--
D|--0-----0-----0-----0-----
A|--------------------------
E|--------------------------



E|--------------------------------------------------
B|-----0-----0-----0-----0--------------------------
G|--4-----4-----4-----4--------4-----4-----4-----4--
D|--------------------------0-----0-----0-----0-----
A|--------------------------------------------------
E|--------------------------------------------------



E|------------------------------------------------------------------------------------------
B|--0--5--7----0--5--7----0--5--7/10--7--5--7----0--5--7----0--5--7----0--5--7/10--7--5--3--
G|------------------------------------------------------------------------------------------
D|------------------------------------------------------------------------------------------
A|------------------------------------------------------------------------------------------
E|------------------------------------------------------------------------------------------



E|--------------------------------------------
B|--3--3--3--3--3--3--5--5--5--5--5--5--5--5--
G|--2--2--2--2--2--2--4--4--4--4--4--4--4--4--
D|--0--0--0--0--0--0--0--0--0--0--0--0--0--0--
A|--------------------------------------------
E|--------------------------------------------
http://www.guitartabcreator.com
Guitar Tab Creator is intended to store guitar tab created through the tool. It currently does not support in-line text editing. Any text you place in here will be lost. If you need to comment on your tab, please use the "Tab Notes" section located below.