Home Wrecker

(/) Slide Up  (\) Slide Down  (h) Hammer On  (p) Pull Off  (b) Bend (r) Release (v) Vibrato

E|-----------------------------------------------
B|-----------------------------------------------
G|--------------------------5--------------5--3--
D|--------------5--3-----------5--3--------------
A|--------------------5--4-----------5--4--------
E|--3--3--3--3-----------------------------------



E|--3--3--6--3--3--8--3--3--10--3--11--3--10--3-----
B|--------------------------------------------------
G|--------------------------------------------------
D|--------------------------------------------------
A|--------------------------------------------------
E|--------------------------------------------------



E|-----------------------------------------------------------------------------3--
B|-----------------------------------------------------------------------------3--
G|-------------------------------------------------------------5--3--5/7\5--3--4--
D|--------------5--3----------------------------5--3---------------------------5--
A|--------------------5--4--3--3----------------------5--4--3------------------5--
E|--3--3--3--3----------------------3--3--3--3---------------------------------3--



E|------------3--------------3--------------5--------------5--------------3--------------3--
B|------------3--------------3--------------5--------------5--------------3--------------3--
G|--5/7\5--3--4----5/7\5--3--4----7/9\7--5--6----7/9\7--5--6----5/6\5--3--4--------------4--
D|------------5--------------5--------------7--------------7--------------5----0--3/5\3--5--
A|------------5--------------5--------------7--------------7--------------5--------------5--
E|------------3--------------3--------------5--------------5--------------3--------------3--
http://www.guitartabcreator.com
Guitar Tab Creator is intended to store guitar tab created through the tool. It currently does not support in-line text editing. Any text you place in here will be lost. If you need to comment on your tab, please use the "Tab Notes" section located below.