Aint no sunshine

(/) Slide Up  (\) Slide Down  (h) Hammer On  (p) Pull Off  (b) Bend (r) Release (v) Vibrato

Stave 1:

E|--------------------|-----|--------------------|-----|-----------------------|--------------------
B|-----------1--0-----|-----|-----------1--0-----|-----|--------1--5--3--5--5--|--1--3-----3--1-----
G|-----0--2--------0--|--2--|-----0--2--------0--|--2--|--2--2-----------------|--------2--------2--
D|--2-----------------|-----|--2-----------------|-----|-----------------------|--------------------
A|--------------------|-----|--------------------|-----|-----------------------|--------------------
E|--------------------|-----|--------------------|-----|-----------------------|--------------------

Stave 2:

E|--------|--------------------------|-----|--------------------|-----|--------------------|-----|--
B|--------|-----1--3--1--1-----------|-----|--------------------|-----|--------------------|-----|--
G|--0--2--|--2--------------2--0--2--|--2--|-----------5--4-----|-----|-----------5--4-----|-----|--
D|--------|--------------------------|-----|-----5--7--------5--|--7--|-----5--7--------5--|--7--|--
A|--------|--------------------------|-----|--7-----------------|-----|--7-----------------|-----|--
E|--------|--------------------------|-----|--------------------|-----|--------------------|-----|--

Stave 3:

E|-----------------------|--------------------------|-------------------------|-----|---
B|--------1--5--3--5--5--|--5--3-----3--1-----------|-----1--3--1\1-----------|-----|---
G|--2--2-----------------|--------2--------2--0--2--|--2-------------2--0--2--|-----|---
D|-----------------------|--------------------------|-------------------------|--7--|--\
A|-----------------------|--------------------------|-------------------------|-----|---
E|-----------------------|--------------------------|-------------------------|-----|---

Stave 4:

E|----------------------------------|---------------------------------------|-----------------------------------------
B|-----------1----------------------|-------------------------------------1\|--1--------------------------------------
G|--0--2--0-----0--2\2--0--2-----0--|--2--0--2--0--2\2--0--2-----0--2--0----|-----0--2--0--2-----0--2--0--2--0--2--0--
D|----------------------------2-----|-------------------------2-------------|-----------------2-----------------------
A|----------------------------------|---------------------------------------|-----------------------------------------
E|----------------------------------|---------------------------------------|-----------------------------------------

http://www.guitartabcreator.com
Guitar Tab Creator is intended to store guitar tab created through the tool. It currently does not support in-line text editing. Any text you place in here will be lost. If you need to comment on your tab, please use the "Tab Notes" section located below.