awaken me quick tab

(/) Slide Up  (\) Slide Down  (h) Hammer On  (p) Pull Off  (b) Bend (r) Release (v) Vibrato


E|---------------------------------------------------------------------------------
B|---------------------------------------------------------------------------------
G|---------------------------------------------------------------------------------
D|---------------------------------------------------------------------------------
A|-----------8p0-----8h10-----10p7--7-----------8p0-----8h10-----10p7--7-----------
E|--0--0--0-------0--------0-----------0--0--0-------0--------0-----------3--3--3--



E|-------------------------------------------------------------------------------------------
B|-------------------------------------------------------------------------------------------
G|-------------------------------------------------------------------------------------------
D|-------------------------------------------------------------------------------------------
A|--8p0-----8h10-----10p7--7-----------8p0--8/7-----7/5--5-----------------------------------
E|-------0--------0-----------8--8--8------------0----------0--0--0--0--0--0--0--0--0--0-----



E|-----------------------------------------------------------
B|-----------------------------------------------------------
G|-----------------------------------------------------------
D|-----------------------------------------------------------
A|-----------------------------------------------------------
E|--0--0--0--0--0--0--0--5--5--5--8--8--8--3--3--3--7--7--7--



E|-----------------------------------------------------------------------------------------
B|-----------------------------------------------------------------------------------------
G|-----------------------------------------------------------------------------------------
D|-----------------------------------------------------------------------------------------
A|-----------------------------------------------------------------------------------------
E|--0--0--0--0--0--0--0--0--0--0--0--0--0--0--0--0--0--0--0--0--5--5--5--8--8--8--3--3--3--



E|-----------------------------------------------------------------------------------------
B|-----------------------------------------------------------------------------------------
G|-----------------------------------------------------------------------------------------
D|-----------------------------------------------------------------------------------------
A|-----------------------------------------------------------------------------------------
E|--7--7--7--0--0--0--0--0--0--0--0--0--0--0--0--0--0--0--0--0--0--0--0--5--5--5--8--8--8--



E|--------------------
B|--------------------
G|--------------------
D|--------------------
A|--------------------
E|--3--3--3--7--7--7--



E|--------------------------------------------------------------------------------
B|--------------------------------------------------------------------------------
G|--------------------------------------------------------------------------------
D|-----0--------------------------------------------------------------------------
A|--0--0--0--0--0--0--0--0--0--0--0--0--7--7--7--7--7--7--7--7--7--7--7--7--7--7--
E|--0--0--0--0--0--0--0--0--0--0--0--0--7--7--7--7--7--7--7--7--7--7--7--7--7--7--



E|--------------------------------------------------------------------------------------
B|--------------------------------------------------------------------------------------
G|--------------------------------------------------------------------------------------
D|--------------------------------------------------------------------------------------
A|--8--8--8--8--8--8--8--8--8--8--8--8--8--8--3--3--3--3--3--3--3--3--3--3--3--3--3--3--
E|--8--8--8--8--8--8--8--8--8--8--8--8--8--8--3--3--3--3--3--3--3--3--3--3--3--3--3--3--



E|--------------------------------------------------------------------------
B|--------------------------------------------------------------------------
G|--------------------------------------------------------------------------
D|--------0-----------------------------------------------------------------
A|--0--0--0--------------0--------------------------------------------------
E|--0--0--0--0--0--0--0--0--0--0--0--0--0--0--0--0--0--0--0--0--0--0--0--0--



E|--------------------------------------------------------------------------------------
B|--------------------------------------------------------------------------------------
G|--------------------------------------------------------------------------------------
D|--------------------------------------------------------------------------------------
A|--5h7p5-----7h8p7--5h7p5--------------------------7--7--7--7--7--7--5--5--5--8--8--8--
E|---------0----------------0--0--0--0--0--0--0--0--------------------------------------



E|-----------------------------------------------------------------------------
B|-----------------------------------------------------------------------------
G|-----------------------------------------------------------------------------
D|-----------------------------------------------------------------------------
A|-----------------------------------5h7p5--7h8p7--5h7p5-----------------------
E|--0--0--0--0--0--0--0--0--0--0--0-----------------------0--0--0--0--0--0--0--



E|-----------------------------------------
B|-----------------------------------------
G|-----------------------------------------
D|-----------------------------------------
A|--7--7--7--7--7--7--5--5--5--10--10--10--
E|-----------------------------------------



E|-----------------------------------------------------------------------------------------------
B|-----------------------------------------------------------------------------------------------
G|-----------------------------------------------------------------------------------------------
D|-----------------------------------------------------------------------------------------------
A|-----------------------------------------------------------------------------------------------
E|--0--0--0--0--0--0--0--0--0--0--0--0--0--0--0--0--0--0--0--0--0--0--0--0--0--0--0--0--0--0-----
http://www.guitartabcreator.com
Guitar Tab Creator is intended to store guitar tab created through the tool. It currently does not support in-line text editing. Any text you place in here will be lost. If you need to comment on your tab, please use the "Tab Notes" section located below.