Dm7 G7 Tritone

(/) Slide Up  (\) Slide Down  (h) Hammer On  (p) Pull Off  (b) Bend (r) Release (v) Vibrato


E|--------5--8--7-----
B|-----6-----------8--
G|--7-----------------
D|--------------------
A|--------------------
E|--------------------



E|--------------------
B|--------4--7--6-----
G|-----4-----------6--
D|--6-----------------
A|--------------------
E|--------------------
http://www.guitartabcreator.com
Guitar Tab Creator is intended to store guitar tab created through the tool. It currently does not support in-line text editing. Any text you place in here will be lost. If you need to comment on your tab, please use the "Tab Notes" section located below.