solo

(/) Slide Up  (\) Slide Down  (h) Hammer On  (p) Pull Off  (b) Bend (r) Release (v) Vibrato


E|--12-----12-----12-------------------------------------------------------------------------------
B|--15b17--15b17--15b17--12------12-----12-----12--------------------------------------------------
G|---------------------------14--14b16--14b16--14b16--12------12--14--14b12v-----------------------
D|--------------------------------------------------------14------------------14--12--12h14p12-----
A|-------------------------------------------------------------------------------------------------
E|-------------------------------------------------------------------------------------------------



E|--------------------------------------------------------------------------------------------------
B|--------------------------------------------------------------------------------------------------
G|--14--12-------------------9--9--9--12--9-------------9--9--9--12--9-------------9--9--9--12--12--
D|--12--14v--14p12p0--9--12------------------12--9--12------------------12--9--12-------------------
A|--------------------------------------------------------------------------------------------------
E|--------------------------------------------------------------------------------------------------



E|------------------------------------------------------------------------------------------------
B|------------------------------------------------------------------------------------------------
G|--12--14--14--14--16--16--16--14--12------17--19--19v--17------17--19--19--19v--17------17--19--
D|--------------------------------------19-------------------19-----------------------19----------
A|------------------------------------------------------------------------------------------------
E|------------------------------------------------------------------------------------------------



E|------------------------------15--15--17--17--17--17--15------15--17--17--17--17--15--20-----
B|--------------------------17------------------------------17---------------------------------
G|--19--19v--17--19--19b21---------------------------------------------------------------------
D|---------------------------------------------------------------------------------------------
A|---------------------------------------------------------------------------------------------
E|---------------------------------------------------------------------------------------------



E|--15--17--17--17--17--15------15----------------------------------------------------------------
B|--------------------------17------17--15------------------------5--8------7-----8------7--------
G|------------------------------------------16--14\12----------7--5--7h9p7--7--7--7h9p7--7--7-----
D|-----------------------------------------------------14--12--7---------------9------------9-----
A|------------------------------------------------------------------------------------------------
E|------------------------------------------------------------------------------------------------



E|--------------------------------------------------------8--10--10--12--12--10--8h10p8-----12-----
B|---------------5--8------7-----8------7-------------10---------------------------------8---------
G|--11--7--5--7--5--7h9p7--7--7--7h9p7--7--7------11-----------------------------------------------
D|--12--9--7--7---------------9------------9--12---------------------------------------------------
A|-------------------------------------------------------------------------------------------------
E|-------------------------------------------------------------------------------------------------



E|--12--12--10--8h10p8-----12--12--12--10--8h10p8-----12--12--12--10--8---------------
B|----------------------8--------------------------8---------------------10--8--------
G|------------------------------------------------------------------------------9--7--
D|------------------------------------------------------------------------------------
A|------------------------------------------------------------------------------------
E|------------------------------------------------------------------------------------
http://www.guitartabcreator.com
Guitar Tab Creator is intended to store guitar tab created through the tool. It currently does not support in-line text editing. Any text you place in here will be lost. If you need to comment on your tab, please use the "Tab Notes" section located below.