sinners eyes solo

(/) Slide Up  (\) Slide Down  (h) Hammer On  (p) Pull Off  (b) Bend (r) Release (v) Vibrato


E|--12--9--------------------9--12--9--------------------9---------9---------9---------9---------
B|---------12--9------9--12------------12--9------9--12-----12b14-----12b14-----12b14-----12b14--
G|----------------11--------------------------11-------------------------------------------------
D|-----------------------------------------------------------------------------------------------
A|-----------------------------------------------------------------------------------------------
E|-----------------------------------------------------------------------------------------------



E|------------------------------------|------------------------------------------------------------
B|--9-----------------------9---------|------------------------------------------------------------
G|-----11--9------9--11b13-----11--9--|----------------9----------------9----------------9--11b13--
D|------------11----------------------|---------9--11------------9--11------------9--11------------
A|------------------------------------|--9--11------------9--11------------9--11-------------------
E|------------------------------------|------------------------------------------------------------
http://www.guitartabcreator.com
Guitar Tab Creator is intended to store guitar tab created through the tool. It currently does not support in-line text editing. Any text you place in here will be lost. If you need to comment on your tab, please use the "Tab Notes" section located below.