my time with you

(/) Slide Up  (\) Slide Down  (h) Hammer On  (p) Pull Off  (b) Bend (r) Release (v) Vibrato

E|-----3------------------------------------------------------3--2p0-------------------------------
B|-----3--------------------------5--7--5\3----------------1--0--0---------------------------------
G|-----0--7h9p7-------------------5--7-------5-------------2----------4--2-------------------------
D|---------------7h9p7-------5-7----------------7--5\2--2--2----------------4--2---------------12--
A|--2-------------------9\3--5/7------------------------3-------------------------4--2p0-------12--
E|--3-------------------------------------------------------------------------------------0h3--12--



E|--------------------------
B|--------------------------
G|--11--12--14--11----------
D|--12--12--12--12\9--7-----
A|-----------------------9--
E|--------------------------



E|--
B|--
G|--
D|--
A|--
E|--
http://www.guitartabcreator.com
Guitar Tab Creator is intended to store guitar tab created through the tool. It currently does not support in-line text editing. Any text you place in here will be lost. If you need to comment on your tab, please use the "Tab Notes" section located below.