arabia

(/) Slide Up  (\) Slide Down  (h) Hammer On  (p) Pull Off  (b) Bend (r) Release (v) Vibrato

E|--12--10--9--10--9--7------------7------------------7--9--10--9--7-----
B|-----------------------7--8--10-----8--7--7--8--10---------------------
G|-----------------------------------------------------------------------
D|-----------------------------------------------------------------------
A|-----------------------------------------------------------------------
E|-----------------------------------------------------------------------



E|------7------7------7--9------7------7--9--10--9--7------7--9--10--9--7--9/12--10--9--7--
B|--10-----10-----10--------10-----10------------------10----------------------------------
G|-----------------------------------------------------------------------------------------
D|-----------------------------------------------------------------------------------------
A|-----------------------------------------------------------------------------------------
E|-----------------------------------------------------------------------------------------



E|------------7--9--10--9--7---------------------------------------7--10--9--7--9/12--10--9--7-----
B|--7--8--10------------------10--8--7--8--7-----------7-----7--8----------------------------------
G|--------------------------------------------9--7--9-----9----------------------------------------
D|-------------------------------------------------------------------------------------------------
A|-------------------------------------------------------------------------------------------------
E|-------------------------------------------------------------------------------------------------



E|------7--
B|--10-----
G|---------
D|---------
A|---------
E|---------



E|--9--10--12--9--10--7--9--7----------------------7--
B|-----------------------------10--7--8--7--8--10-----
G|----------------------------------------------------
D|----------------------------------------------------
A|----------------------------------------------------
E|----------------------------------------------------



E|--
B|--
G|--
D|--
A|--
E|--
http://www.guitartabcreator.com
Guitar Tab Creator is intended to store guitar tab created through the tool. It currently does not support in-line text editing. Any text you place in here will be lost. If you need to comment on your tab, please use the "Tab Notes" section located below.