Summertime / Parisienne Walkways

(/) Slide Up  (\) Slide Down  (h) Hammer On  (p) Pull Off  (b) Bend (r) Release (v) Vibrato
E|-----------------|-----------------|-----------------|-----------------|-----------------|-
B|-------5-------7-|-------5-------7-|-------5-------7-|-------5-------7-|-------5-------7-|-
G|-----5-------7---|-----5-------7---|-----5-------7---|-----5-------7---|-----5-------7---|-
D|---4-------6-----|---4-------6-----|---4-------6-----|---4-------6-----|---4-------6-----|-
A|-0---------------|-0---------------|-0---------------|-0---------------|-0---------------|-
E|---------0-------|---------0-------|---------0-------|---------0-------|---------0-------|-



E|-----------------|-------1-------1-|-------1-------1-|---------|---|-
B|-------5-------6-|-----3-------2---|-----1-------0---|---------|---|-
G|-----5-------6---|---2-------2-----|---2-------2-----|-1-1-2-2-|-1-|-
D|---4-------6-----|-0-------0-------|-0-------0-------|-2-2-3-3-|-2-|-
A|-0---------------|-----------------|-----------------|-2-2-3-3-|-2-|-
E|---------0-------|-----------------|-----------------|---------|---|-



E|-----------------|-----------------|-----------------|-----------------|-3-5-|-3-1-|-
B|-------5-------7-|-------5-------7-|-------5-------7-|-------5-------7-|-5-5-|-3-1-|-
G|-----5-------7---|-----5-------7---|-----5-------7---|-----5-------7---|-4-5-|-2-1-|-
D|---4-------6-----|---4-------6-----|---4-------6-----|---4-------6-----|-5-5-|-1---|-
A|-0---------------|-0---------------|-0---------------|-0---------------|-3---|-----|-
E|---------0-------|---------0-------|---------0-------|---------0-------|-----|-----|-



E|-----------------|-----------------|-----------------|-----------------|-----------------|-
B|-------5-------7-|-------5-------7-|-------5-------7-|-------5-------7-|-------5-------7-|-
G|-----5-------7---|-----5-------7---|-----5-------7---|-----5-------7---|-----5-------7---|-
D|---4-------6-----|---4-------6-----|---4-------6-----|---4-------6-----|---4-------6-----|-
A|-0---------------|-0---------------|-0---------------|-0---------------|-0---------------|-
E|---------0-------|---------0-------|---------0-------|---------0-------|---------0-------|-



E|-----------------|-------1-------1-|-------1-------1-|---------|---|-
B|-------5-------7-|-----3-------2---|-----1-------0---|---------|---|-
G|-----5-------7---|---2-------2-----|---2-------2-----|-1-1-2-2-|-1-|-
D|---4-------6-----|-0-------0-------|-0-------0-------|-2-2-3-3-|-2-|-
A|-0---------------|-----------------|-----------------|-2-2-3-3-|-2-|-
E|---------0-------|-----------------|-----------------|---------|---|-



E|-----------------|-----------------|-----------------|-----------------|-3-5-|-3-1-|-
B|-------5-------7-|-------5-------7-|-------5-------7-|-------5-------7-|-5-5-|-3-1-|-
G|-----5-------7---|-----5-------7---|-----5-------7---|-----5-------7---|-4-5-|-2-1-|-
D|---4-------6-----|---4-------6-----|---4-------6-----|---4-------6-----|-5-5-|-1-0-|-
A|-0---------------|-0---------------|-0---------------|-0---------------|-3---|-----|-
E|---------0-------|---------0-------|---------0-------|---------0-------|-----|-----|-



E|-------0-----------0-----|-------1-----------1-----|-------1-----------1-----|-
B|---------1-----------1---|-----1---1-------1---1---|-----1---1-------1---1---|-
G|-----2-----2-----2-----2-|---2-------2---2-------2-|---2-------2---2-------2-|-
D|---2-----------2---------|-0-----------0-----------|-------------------------|-
A|-0-----------0-----------|-------------------------|-------------------------|-
E|-------------------------|-------------------------|-3-----------3-----------|-



E|-------0-----------------|-------1-----------1-----|-------1-----------1-----|-
B|-----0---0---------0-----|-----1---1-------1---1---|---------3-----------3---|-
G|---0-------0-----0---0---|---2-------2---2-------2-|-----2-----2-----2-----2-|-
D|---------------2-------2-|-0-----------0-----------|---0-----------0---------|-
A|-3-----------3-----------|-------------------------|-2-----------2-----------|-
E|-------------------------|-------------------------|-------------------------|-



E|-------------------------|---|-
B|-------3-----------3-----|---|-
G|-----1---1-------1---1---|---|-
D|---0-------0---0-------0-|---|-
A|-------------------------|-0-|-
E|-0-----------0-----------|---|-
http://www.guitartabcreator.com
Guitar Tab Creator is intended to store guitar tab created through the tool. It currently does not support in-line text editing. Any text you place in here will be lost. If you need to comment on your tab, please use the "Tab Notes" section located below.